Adele \ Someone like you - Guitar Lesson with Tabs









Intro:
********************

   A
E|-----0-------0-------0-------0---|
B|---------------------------------|
G|---6---6---6---6---6---6---6---6-|
D|-7-------7-------7-------7-------|
A|---------------------------------|
E|---------------------------------|

   C#m
E|-----0-------0-------0-------0---|
B|---------------------------------|
G|---6---6---6---6---6---6---6---6-|
D|-6-------6-------6-------6-------|
A|---------------------------------|
E|---------------------------------|


   F#m
E|---------------------------------|
B|-----7-------7-------7-------7---|
G|---6---6---6---6---6---6---6---6-|
D|-4-------4-------4-------4-------|
A|---------------------------------|
E|---------------------------------|


   D
E|-----------------------------------|
B|-------7-------7-------7-------7---|
G|-----7---7---7---7---7---7---7---7-|
D|-4/7-------7-------0-------0-------|
A|-----------------------------------|
E|-----------------------------------|


Verse:
*************************

   A
E|-----0-------0-------0-------0---|
B|---------------------------------|
G|---6---6---6---6---6---6---6---6-|
D|-7-------7---------------7-------|
A|-----------------0---------------|
E|---------------------------------|

   C#m
E|-----0-------0-------0-------0---|
B|---------------------------------|
G|---6---6---6---6---6---6---6---6-|
D|-6-------6---------------6-------|
A|---------------------------------|
E|-----------------4---------------|


   F#m
E|---------------------------------|
B|-----7-------7-------7-------7---|
G|---6---6---6---6---6---6---6---6-|
D|-4-------4---------------4-------|
A|-----------------4---------------|
E|---------------------------------|


   D
E|--------------------------------|
B|-------7-------7-------7--------|
G|-----7---7---7---7---7---7------|
D|-4/7-------7-------0-------0----|
A|--------------------------------|
E|--------------------------------|


Bridge:
******************************

   Eadd9
E|-----0-------0---|
B|-----------------|
G|---1---1---1---1-|
D|-4-------4-------|
A|-----------------|
E|-----------------|

   
   F#m7
E|-----0-------0---|
B|-----------------|
G|---2---2---2---2-|
D|-4---------------|
A|-----------------|
E|---------2-------|


   D
E|---------------------------------|
B|-----3-------3-------3-------3---|
G|---2---2---2---2---2---2---2---2-|
D|-0-------0-------0-------0-------|
A|---------------------------------|
E|---------------------------------|


   Esus4
E|-----------------|
B|-----0-------0---|
G|---2---2---2---2-|
D|-----------------|
A|-----------------|
E|-0-------0-------|

  
   F#mbb5
E|-----------------|
B|-----0-------0---|
G|---2---2---2---2-|
D|-----------------|
A|-----------------|
E|-2-------2-------|


   D
E|-----------------|
B|-----3-------3---|
G|---2---2---2---2-|
D|-0-------0-------|
A|-----------------|
E|-----------------|

   F#7sus4
E|-----0-------0---|
B|---0---0---0---0-|
G|-----------------|
D|-4-------4-------|
A|-----------------|
E|-----------------|


    F#5
E|-----2-------2---|
B|---2---2---2---2-|
G|-----------------|
D|-4-------4-------|
A|-----------------|
E|-----------------|


    F#sus2sus4
E|-----4-------4---|
B|---0---0---0-----|
G|-----------------|
D|-4-------4-------|
A|-----------------|
E|-----------------|



Chorus:
******************************

   A
E|-----------------|
B|-----2-------2---|
G|---2---2---2---2-|
D|---------2-------|
A|-0---------------|
E|-----------------|

   E
E|-----------------|
B|-----0-------0---|
G|---1---1---1---1-|
D|-2-------2-------|
A|-----------------|
E|-----------------|

   F#m
E|-----------------|
B|-----2-------2---|
G|---2---2---2---2-|
D|-4-------4-------|
A|-----------------|
E|-----------------|


   D
E|-----------------|
B|-----3-------3---|
G|---2---2---2---2-|
D|-0-------0-------|
A|-----------------|
E|-----------------|



Part B:
******************************

   Eadd9
E|-----0-------0---|
B|-----------------|
G|---1---1---1---1-|
D|-4-------4-------|
A|-----------------|
E|-----------------|

   
   F#m7
E|-----0-------0---|
B|-----------------|
G|---2---2---2---2-|
D|-4---------------|
A|-----------------|
E|---------2-------|


   D
E|---------------------------------|
B|-----3-------3-------3-------3---|
G|---2---2---2---2---2---2---2---2-|
D|-0-------0-------0-------0-------|
A|---------------------------------|
E|---------------------------------|


   B#m
E|-----------------|
B|-----3-------3---|
G|---4---4---4---4-|
D|-----------------|
A|-2-------2-------|
E|-----------------|

   C#m
E|-----------------|
B|-----5-------5---|
G|---6---6---6---6-|
D|-----------------|
A|-4-------4-------|
E|-----------------|


    D
E|-----------------|
B|-----------------|
G|-----2-------2---|
D|---4---4---4---4-|
A|-5-------5-------|
E|-----------------|

    E
E|---------------|
B|-----0-------0-|
G|---1---1---1---|
D|-2-------2-----|
A|---------------|
E|---------------|





 

The Police \ Every breath you take - Guitar Lesson with Tabs










   Gadd9             Gadd9
E|-----------------|-----------------|
B|---------0-------|---------0-------|
G|-----2-----2---2-|-----2-----2---0-|
D|---0---0-----0---|---0---0-----0---|
A|-----------------|-----------------|
E|-3---------------|-3---------------|


   Emadd2            Emadd2
E|-----------------|-----------------|
B|-----------------|-----------------|
G|---------0-------|---------0-------|
D|-----4-----4---4-|-----4-----4---0-|
A|---2---2-----2---|---2---2-----2---|
E|-0---------------|-0---------------|


   Cadd9   C
E|-----------------|
B|-----3---1-------|
G|-----------0---0-|
D|---2---------2---|
A|-3-----3---------|
E|-----------------|


   Dsus2
E|-----0-----------|
B|---------3-------|
G|---2-------2---2-|
D|-0-----0-----0---|
A|-----------------|
E|-----------------|


   C7/A#
E|-----------------|
B|---------1-------|
G|-----0-----0---0-|
D|---2---2-----2---|
A|-1---------------|
E|-----------------|


   Aadd9
E|-----------------|-----------------|
B|---------2-------|---------2-------|
G|-----4-----4---4-|-----4-----4---4-|
D|---2---2-----2---|---2---2-----2---|
A|-0---------------|-0---------------|
E|-----------------|-----------------|


   Dsus2             Dsus2
E|-----0-----------|-----0-----------|
B|---------3-------|---------3-------|
G|---2-------2---2-|---2-------2---0-|
D|-0-----0-----0---|-0-----0-----0---|
A|-----------------|-----------------|
E|-----------------|-----------------|

 

Foo fighters \ Walking after you - Guitar Lesson with Tabs









Intro :
=================================

E

E|-----------------------------------------|
B|-----5---7-----9---5------10---9---7---5-|
G|-----------------------------------------|
D|-4/6-------7/9-------6/11--------9---7---|
A|-----------------------------------------|
E|-------0---------0-----------0-----------|


Verse :
=================================

E

E/G#

   A
E|-------------------------|
B|------10------10------10-|
G|-------------------------|
D|-9/11------11------11----|
A|---------0-------0-------|
E|-------------------------|


   C# dim7
E|----------------|
B|-------11-------|
G|-9--------9-----|
D|---8--------8---|
A|-----7--------7-|
E|----------------|

A

A sus2

B11 omit 5\D#


Chorus
=================================

F#

A sus2

E


 

Hoobastank \ The Reason - Guitar Lesson with Tabs








1. Capo on the second fret
2. All tabs are relative to the second fret


E|-----------------|
B|-----------------|
G|-----------------|
D|-0-0-0-0-0-0-0-0-|
A|-----------------|
E|-----------------|


   E        X3
E|-------2---------|-------2---------|
B|---5-------2---3-|---5-------3---0-|
G|-----------------|-----------------|
D|-0---0---0---0---|-0---0---0---0---|
A|-----------------|-----------------|
E|-----------------|-----------------|



   C#m      X4
E|-----------------|
B|---2---3-------0-|
G|-----------2-----|
D|-----------------|
A|-2---2---2---2---|
E|-----------------|


   E        X3
E|-------2---------|-------2---------|
B|---5-------2---3-|---5-------3---0-|
G|-----------------|-----------------|
D|-0---0---0---0---|-0---0---0---0---|
A|-----------------|-----------------|
E|-----------------|-----------------|


   C#m      X3
E|-----------------|-----------------|
B|---2---3-------0-|---2---3---------|
G|-----------2-----|-----------2---0-|
D|-----------------|-----------------|
A|-2---2---2---2---|-2---2---2---2---|
E|-----------------|-----------------|

   A        X2
E|---------------------------------|
B|---2---3-------0---2---3-------0-|
G|-----------2---------------2-----|
D|-----0---0-------0---0---0---0---|
A|---------------------------------|
E|-3-----------3-------------------|


   B
E|---------------------------------|
B|-------2---------------2---------|
G|---4-------2---2---4-------2---2-|
D|---------------------------------|
A|-0---0---0---0---0---0---0---0---|
E|---------------------------------|




 

Shape of my heart \ Sting - Easy guitar lesson with Tabs






1. Capo on the second fret
2. All tabs are relative to the second fret


   F#        E6        Bm          C#m7addb2
E|-3-----3-|-2-----2-|-0-----0---|-0-------|
B|---0-----|---0-----|-----------|-----4---|
G|---------|---------|---2-------|---2---2-|
D|-2---2---|-0---0---|-----------|---------|
A|---------|---------|-0---0-----|-2---2---|
E|---------|---------|-----------|---------|

   F#m#5     E6        Bm          C#m7addb2
E|-3-----3-|-2-----2-|-0-----0---|-0-------|
B|---1-----|---0-----|-----------|-----4---|
G|---------|---------|---2-------|---2---2-|
D|-2---2---|-0---0---|-----------|---------|
A|---------|---------|-0---0-----|-2---2---|
E|---------|---------|-----------|---------|

   D6sus2                A         C#7     DM7     G#m7    F#m
E|---0-----3-----0-----|---------|-------|-------|-------|-0----|
B|---------------------|-0-----3-|-----4-|-5-3---|-2-----|-0----|
G|-----2-----2-----2---|-0h2-0---|-----2-|-4---5-|-2-2-0-|-0----|
D|---------------------|---------|---4---|-------|-------|-2----|
A|-3-----3-----3-----3-|---------|-2-----|-3-----|-------|-2----|
E|---------------------|-3-------|-------|-------|-2-----|-0----|




 

Nikka Costa - On my Own - שיעור גיטרה





Intro:
======
   G            G6sus4      Dadd4/F#      G6sus4
E|--------------------3--------3----------------3-----|
B|-----------0--1--------1--3-----3-------1--------1--|
G|--------0--------0-----------------0-------0--------|
D|-----0--------2-----------4-------------2-----------|
A|----------------------------------------------------|
E|--3-------------------------------------------------|


Verse :
=======
    C                 Bm/D              CM7               Bm7   G/B
E|--3-----3--------|--2-----2--------|--0-----0-----0--|----------3--------|
B|--1--------1-----|--3--------3-----|--0--------------|--3----------3-----|
G|--0-----------0--|--4-----------4--|--0--1-----2-----|--2-------------0--|
D|--2--------------|--0--0-----------|--2--------------|-------------------|
A|--3--3-----------|-----------------|--3--------------|--2-----2----------|
E|-----------------|-----------------|-----------------|-------------------|

    Am7               G/B  G                 
E|--0-----------0--|----------------------|
B|--1--------1-----|--3-------------------|
G|--0-----0--------|--0----------0--------|
D|--2--2-----------|----------0-----------|
A|--0--------------|--2-------------2--3--|
E|-----------------|-------3--------------|


 D9sus4                     D           Dsus2  D
E|--------------0-----------|--2-----2-----0------2-----|
B|--------1--------1-----1--|--3-----3-----3------3-----|
G|-----0-----0--------0-----|--2-----2-----2------2-----|
D|--0-----------------------|--0--0-----0-----0------0--|
A|--------------------------|---------------------------|
E|--------------------------|---------------------------|



Chorus :
========
    C                            B7sus4      B7
E|----------------------------|--------------------------|
B|--1-----1-----1-----1-------|--5-----5-----4-----4-----|
G|--0-----0-----0-----0-------|--2-----2-----2-----2-----|
D|-----0-----0-----0-----0----|-----4-----4-----4-----4--|
A|--3-----------3-------------|--2-----------2-----------|
E|----------------------------|--------------------------|

    Em          EM7omit3         A9sus4      A7
E|--------------------------|----------------------------|
B|--0-----0-----4-----4-----|----3-----3-----2-----2-----|
G|--0-----0-----4-----4-----|----4-----4-----0-----0-----|
D|-----2-----2--2--2-----2--|-------5-----5-----2-----2--|
A|--------------------------|----0-----------0-----------|
E|--0-----------------------|----------------------------|

    F#m7  Bm7   F#m7  Bm7   
E|-----------------------|
B|--2-----3-----2-----3--|
G|--2-----2-----2-----2--|
D|-----------------------|
A|--------2-----------2--|
E|--2-----------2--------|

   
    CM7
E|--0-----|-----------------------|
B|--0-----|-----------5-----------|
G|--0-----|--------4-----3--4--6--|
D|--2-----|-----4--------------4--|
A|--3-----|-----------------------|
E|--------|--2-----------2--4--6--|